+
- 
My Guitar Songbook
Good Evening  |  Sign In 
Acoustic Blues Guitar Lesson  

Info  |  Tutorial  |  Tab  |  Rate It  |  Share
Acoustic Blues Guitar Lesson - Robert Renman
 Arranged By: Robert Renman
 Audio Src: Tutorial
 Rated: ( 1 )  | 

Key E - 4/4 Time

   E x E       E x E       E x E       E x E
          _           _           _           _
   | | | | |   | | | | |   | | | | |   | | | | |
e|-0-2-0-----|-0-2-0-----|-0-2-0-----|-0-2-0-----|
B|-0-2-0-----|-0-2-0-----|-0-2-0-----|-0-2-0-----|
G|-1-2-1-----|-1-2-1-----|-1-2-1-----|-1-2-1-----|
D|-2-2-2-----|-2-2-2-----|-2-2-2-----|-2-2-2-----|
A|-2-2-2-----|-2-2-2-----|-2-2-2-----|-2-2-2-----|
E|-0---0-3-4-|-0---0-3-4-|-0---0-3-4-|-0---0-3-4-|

   A7        A7          E x E       E x E
                    _           _           _
   | | | |   | | | | |   | | | | |   | | | | |
e|-3-------|-3---------|-0-2-0-----|-0-2-0-----|
B|-2-------|-2---------|-0-2-0-----|-0-2-0-----|
G|-2-------|-2---------|-1-2-1-----|-1-2-1-----|
D|-2-------|-2---------|-2-2-2-----|-2-2-2-----|
A|-0-------|-0-------0-|-2-2-2-----|-2-2-2-0-1-|
E|---------|-------3---|-0---0-3-4-|-0---0-----|

   B7        A7          E                  C7 B7
                    _     _   _   _   _       _     _
   | | | |   | | | | |   | | | | | | | |   | | | | | |
e|-2-------|-3---------|-0-0---0---0---0-|-------------|
B|-0-------|-2---------|-0---------------|-------------|
G|-2-------|-2---------|-1---------------|---9-8-------|
D|-1-------|-2---------|-2---------------|---8-7-------|
A|-2-------|-0-------0-|-2---------------|---7-6-----0-|
E|---------|-------3---|-0---4---5---6---|-7-8-7---3---|

x = Esus4 with a 6 and a 9
Top
 
Previous Lick  Previous | Next  Next Lick