A +
A - 


Top
My Guitar Songbook
Good Morning  |  Sign In 
Play Lead with the Wah  
  About  |  Tutorial  |  Tab (PDF)  |  Rate It  |  Share
Play Lead with the Wah - Anders Mouridsen       mp3
 About this Lick
 Tutorial & Tab: Anders Mouridsen
  Audio Clip from the Tutorial
 Rated: ( 5 ) |

 

Key D - 4/4 Time
Key D:
-----

         __    __ __ __      __ __ __     ___ __
    |   |  |  |  |  |  |    |  |  |  |   |   |  |    |
e|-----10----------10----|------------------------|----|
B|-13b----10-13b------10-|-------10---------------|----|
G|-----------------------|-12b------12br(12)10----|----|
D|-----------------------|---------------------12-|-12-|
A|-----------------------|------------------------|----|
E|-----------------------|------------------------|----|


*:·..·:*¨¨*:·..·:*¨¨*:·..·:*


Key E: (Transposed - Original Key D)
-----

     __ __ _   __ __ _     __ _ _     __ 
    |  |  | | |  |  | |   |  | | |   |  | |   |
e|--------0---------0---|-------------------|---|
B|--3b------0-3b------0-|------0------------|---|
G|----------------------|-2b-----2br(2)-0---|---|
D|----------------------|-----------------2-|-2-|
A|----------------------|-------------------|---|
E|----------------------|-------------------|---|
Previous Lick  Previous | Next  Next Lick