+
- 
My Guitar Songbook
Good Morning  |  Sign In 
Useful SVR Style Blues Lick  

Info  |  Tutorial  |  Tab  |  Rate It  |  Share
Useful SVR Style Blues Lick - Robert Renman
 Arranged By: Robert Renman
 Audio Src: Tutorial
 Rated: ( 3 )  | 

Key B - 4/4 Time

Key B:
-----
    _   _   _   _     _   _   _ 
   | | | | | | | |   | | | | | |
e|-------------------------------|
B|-------7-----------------------|
G|---7-9---7---------------------|
D|-9---------9---7h8p7-----------|
A|-------------9-------9-8-7-5---|
E|-----------------------------7-|


*:•..•:*¨¨*:•..•:*¨¨*:•..•:*


Key E: (Transposed - Original Key B)
-----
    _   _   _   _     _   _   _
   | | | | | | | |   | | | | | |
e|-------------------------------|
B|-------0-----------------------|
G|---0-2---0---------------------|
D|-2---------2---0h1p0-----------|
A|-------------2-------2-1-0-3---|
E|-----------------------------0-|
Top
 
Previous Lick  Previous | Next  Next Lick