+
- 
My Guitar Songbook
Good Evening  |  Sign In 
Southern Rock Licks (168)  

Info  |  Tutorial  |  Tab  |  Rate It  |  Share
Southern Rock Licks (168) - Neal Walter
 Arranged By: Neal Walter
 Audio Src: Tutorial
 Rated: ( 2 )  | 

Key A - 4/4 Time


(\__/)
(=''=)  Main Lick - Open "A" Position:
(")(")  -----------------------------

      _   _       _   _   _
   | | | | | |   | | | | | |
e|-------------|-------------|
B|-2-----2-2---|-2-----2-2---|
G|-2-----2-2---|-2-----2-2---|
D|-2-----2-2---|-2-----2-2---|
A|-0-3h4-------|-0-3h4-------|
E|-X-----------|-X-----------|


At "D" Position:
---------------
      _   _       _   _   _
   | | | | | |   | | | | | |
e|-------------|-------------|
B|-7-----7-7---|-7-----7-7---|
G|-7-----7-7---|-7-----7-7---|
D|-7-----7-7---|-7-----7-7---|
A|-X-8h9-------|-X-8h9-------|
E|-X-----------|-X-----------|


(\__/)
(=''=)  Embellishment:
(")(")  -------------

Open "A" Position:
-----------------
    _   _         _
   | | | | | |   | | | | |
e|-------------|-----------|
B|-2-----2-2---|-2h3-3-2---|
G|-2-----2-2---|-2-2-2-2---|
D|-2-----2-2---|-2h4-4-2---|
A|-0-3h4-------|-----------|
E|-X-----------|-----------|


At "D" Position:
---------------
      _   _       _
   | | | | | |   | | | | |
e|-------------|-----------|
B|-7-----7-7---|-7h6-6-7---|
G|-7-----7-7---|-7-7-7-7---|
D|-7-----7-7---|-7h8-8-7---|
A|-X-8h9-------|-----------|
E|-X-----------|-----------|

You know this is in the D Position because
it is pulled out of this D Barr Chord shape
you bar the B, G and D strings at the 7th fret
with your index finger and mute the A string
with the end of your index finger and the
E string with your thumb - all you get is
the chord and none of the lower strings.
Top
 
Previous Lick  Previous | Next  Next Lick