+
- 
My Guitar Songbook
Good Morning  |  Sign In 
Jimi Hendrix Style Major Chords  

Info  |  Tutorial  |  Tab  |  Rate It  |  Share
Jimi Hendrix Style Major Chords - Robert Renman
 Arranged By: Robert Renman
 Audio Src: Tutorial
 Rated: ( 3 )  | 

Key E - 4/4 Time

   E
    _     __ ___     ___ __
   | |   |  |   |   |   |  |  |
e|-0-0----------------------------|
B|-0-0----------------------------|
G|-1-1------9h-(9)-(9)-----9------|
D|-2-2------9h-11p--9------9------|
A|-2-2-s11-------------11----11s\-|
E|-0-0----------------------------|


   B
    _     __ ___     __ __
   | |   |  |   |   |  |  |  |
e|-2-2--------------------------|
B|-4-4--------------------------|
G|-4-4-----4h-(6)-(4)----4------|
D|-4-4-----4h--6p--4-----4------|
A|-2-2-s6-------------6-----6s\-|
E|-2-2--------------------------|


   A
    _     __ ___     __ __
   | |   |  |   |   |  |  |   |
e|-0-0---------------------------|
B|-2-2---------------------------|
G|-2-2------2h-(4)-(2)----2------|
D|-2-2------2h--4p--2-----2------|
A|-0-0--s4-------------4-----4s\-|
E|-X-X---------------------------|


   E (Ending Lick)
    _    __ __        __ _ 
   | |  |  |  |  |   |  | |
e|-0-0----------------------|
B|-0-0----------------------|
G|-1-1--1h-2--1-(1)---------|
D|-2-2--2-(2)-2-(2)---------|
A|-2-2----------(2)-------2-|
E|-0-0----------(0)--2s-4---|
Top
 
Previous Lick  Previous | Next  Next Lick