+
- 
My Guitar Songbook
Good Morning  |  Sign In 
Guitar Lesson #4: Muddy Waters

About  |  Tutorial  |  Tab  |  Rate It  |  Share
Guitar Lesson #4: Muddy Waters - Anders Mouridsen
Lick from Anders Mouridsen
Audio clip from the Tutorial
About this Lick
Rated: ( 1 )  | 

 

Key E - 4/4 Time

      _ _ _         _   ___ __ _
   | | | | |   | | | | |   |  | |   |
e|-----------|-------0------------|-------|
B|-----------|--------------------|-------|
G|-----------|---------2br(2)p0---|-------|
D|-----------|-2----------------2-|-------|
A|-----0h2---|--------------------|-------|
E|---3-----3-|--------------------|-0-----|


:·..·:·..·:·..·:·..·:


Key A (Transposed - Original Key E):
-----

      _ _ _         _   ___ __ _
   | | | | |   | | | | |   |  | |   |
e|-----------|-------5------------|-------|
B|-----------|--------------------|-------|
G|-----------|---------7br(7)p-5--|-------|
D|-----------|-7----------------7-|-------|
A|------5h7--|--------------------|-------|
E|--8------8-|--------------------|-5-----|
Top
Previous Lick  Previous | Next  Next Lick