+
- 
My Guitar Songbook
Good Evening  |  Sign In 
Double Stop Bends  

Info  |  Tutorial  |  Tab  |  Rate It  |  Share
Double Stop Bends - Jody Worrell
 Arranged By: Jody Worrell
 Audio Src: Tutorial
 Rated: ( 4 )  | 

Key A - 4/4 Time

Key A
-----

    _ _      ___             _
   | | | |  |   |   |     | | | | |
e|----------------------|-----------|
B|---5-7-7b-7br(7)-(7)b-|-5---------|
G|---5-7-7b-7br(7)-(7)b-|-5-------5-|
D|s7--------------------|---7-6-7---|
A|----------------------|-----------|
E|----------------------|-----------|


*:·..·:*¨¨*:·..·:*¨¨*:·..·:*¨¨*


Key E (Transposed - original Key A)
-----

    _ _      ___               _
   | | | |  |   |   |     |   | | | |
e|----------------------|-------------|
B|---0-2-2b-2br(2)-(2)b-|-0-----------|
G|---0-2-2b-2br(2)-(2)b-|-0---------0-|
D|s2--------------------|-----2-1-2---|
A|----------------------|-------------|
E|----------------------|-------------|
Top
 
Previous Lick  Previous | Next  Next Lick