+
- 
My Guitar Songbook
Good Evening  |  Sign In 
Dirty Blues Lick  

Info  |  Tutorial  |  Tab  |  Rate It  |  Share
Dirty Blues Lick - Mr Blues Strings
 Arranged By: Mr Blues Strings
 Audio Src: Tutorial
 Rated: ( 3 )  | 

Key C - 4/4 Time

        _        __   __     ___    _    ___
   |   | |  |   |  | |  |   |   |  | |  |   |
e|11b--8--------8-----------------------------|
B|10b----8-11bv---11-8------------------------|
G|---------------------10br(10)p8----8v(8)----|
D|--------------------------------10-------10-|
A|--------------------------------------------|
E|--------------------------------------------|



*:•..•:*¨¨*:•..•:*¨¨*:•..•:*¨¨*


Key E (Transposed - Original Key C):
-----

        _       _   _     ___   _    __ 
   |   | | |   | | | |   |   | | |  |  |
e|-3b--0-------0-------------------------|
B|-2b----0-3bv---3-0---------------------|
G|-------------------2br(2)p-0---0-(0)---|
D|-----------------------------2-------2-|
A|---------------------------------------|
E|---------------------------------------|
Top
 
Previous Lick  Previous | Next  Next Lick