+
- 
My Guitar Songbook
Good Evening  |  Sign In 
Happy Birthday (Flatpicking) 

Happy Birthday (Flatpicking) - Nicola Mandorino
 Artist: Nicola Mandorino
 Audio Src: Tutorial
 Rated: ( 4 )  | 

Standard Tuning - 3/4 Time

Melody:
------
             C       G                 C
        _                 _                 _
   | | | |   | | |   | | | |   | | |   | | | |
e|---------|-------|---------|-------|---------|
B|---------|-----1-|-0-------|-----3-|-1-------|
G|-----0-0-|-2-0-0-|-0---0-0-|-2-0-0-|-0---0-0-|
D|---------|-----2-|-0-------|-----0-|-2-------|
A|---------|-----3-|-x-------|-----x-|-3-------|
E|---------|-------|-3-------|-----3-|---------|

   C       F         C   G   C           C
                _                 _
   | | |   | | | |   | | |   | | | |     | | |
e|-3-0---|-----1-1-|-0-----|---------| |-------|
B|-1---1-|-0-------|-1-1-3-|-1-------| |-1-----|
G|-0-----|-2-2-----|-0---0-|-0---0-0-| |-0-----|
D|-2-----|-3-------|-2---0-|-2-------| |-2-----|
A|-------|---------|-3---x-|-3-------| |-3-----|
E|-------|---------|-----3-|---------| |-------|


Happy birthday to you
Happy birthday to you
Happy birthday to dear one
Happy birthday to you

From good friends and true
From old friends and new
May good luck go with you
And happiness too.
 
Previous Song  Previous | Next  Next Song