+
- 
My Guitar Songbook
Good Evening  |  Sign In 
Blues Rhythm Lesson Chucky  

Info  |  Tutorial  |  Tab  |  Rate It  |  Share
Blues Rhythm Lesson Chucky - Robert Renman
 Arranged By: Robert Renman
 Audio Src: Tutorial
 Rated: ( 4 )  | 

Key E - 4/4 Time

   E7
      _   _   _         _   _     _   _   _   _         _   _
   | | | | | | |   | | | | | |   | | | | | | | |   | | | | | |
e|---0---0-0---0-|-------------|-----0---0-0---0-|-------------|
B|---3---3-3---3-|-------------|-----3---3-3---3-|-------------|
G|---1---1-1---1-|-------------|-----1---1-1---1-|-------------|
D|---2---2-2---2-|-------------|-----2---2-2---2-|-------------|
A|---2---2-2---2-|-------------|-----2---2-2---2-|-------------|
E|-0-0-X-0-0-X-0-|-------0-3-4-|-0---0-X-0-0-X-0-|-------0-3-4-|


   A7                            E7
      _   _   _         _   _     _   _   _   _         _   _
   | | | | | | |   | | | | | |   | | | | | | | |   | | | | | |
e|---3---3-3---3-|-------------|-----0---0-0---0-|-------------|
B|---2---2-2---2-|-------------|-----3---3-3---3-|-------------|
G|---2---2-2---2-|-------------|-----1---1-1---1-|-------------|
D|---2---2-2---2-|-------------|-----2---2-2---2-|-------------|
A|-0---X-----X---|-------0-----|-----2---2-2---2-|---------0-1-|
E|---------------|---------3-2-|-0---------------|-------0-----|


   B7                            A7
      _   _   _         _   _     _   _   _   _         _   _
   | | | | | | |   | | | | | |   | | | | | | | |   | | | | | |
e|---2---2-2---2-|-------------|-----3---3-3---3-|-------------|
B|---0---0-0---0-|-------------|-----2---2-2---2-|-------------|
G|---2---2-2---2-|-------------|-----2---2-2---2-|-------------|
D|---1---1-1---1-|-------0-----|-----2---2-2---2-|-------------|
A|-2-2-X-2-2-X-2-|---------2-1-|-0-----X-----X---|-------0-----|
E|---------------|-------------|-----------------|---------3-2-|
         (Not part of lesson)
Top
 
Previous Lick  Previous | Next  Next Lick