+
- 
My Guitar Songbook
Good Evening  |  Sign In 
BB King Licks 1 - 5 

BB King Licks 1 - 5 - Sam Lay
 Artist: Sam Lay
 Audio Src: Tutorial
 Rated: ( 2 )  | 

Key E - 4/4 Time

Lick 1
------
    E                  E
     _    __            __ ___ __
    | |  |  |   |  |   |  |   |  | | |   |
e|-------------------|------------------12-|
B|-------------------|---------------------|
G|----9----11b(11)b--|-9h-11p-9----9-9v----|
D|s11---11-----------|----------11---------|
A|-------------------|---------------------|
E|-------------------|---------------------|

    E                 E
     ___       _
    |   |  |  | | |
e|------------------|------------------|
B|------------------|------------------|
G|-11s-13-11-11-9---|------------------|
D|------------------|------------------|
A|------------------|------------------|
E|------------------|------------------|

Lick 2
------
    A                A                                        
     _ _   _ __ _     _ _   _ __ _   __
    | | | | |  | |   | | | | |  | | |  | |
e|--5--------------|-5---------------------|
B|----8-5----------|---8-5-----------------|
G|--------7-5h-6---|-------7-5h-6----------|
D|---------------7-|--------------7------7-|
A|-----------------|----------------7s-9---|
E|-----------------|-----------------------|

   E                  E
                       ___    _     
                      |   |  | | | |
e|-----------------|-12\-------------|
B|-----------------|-----7br-7-5-----|
G|-----------------|-----------------|
D|-----------------|-----------------|
A|-----------------|-----------------|
E|-----------------|-----------------|

Lick 3
------
   B                                A
     ___ __     __ ___            ___ __ ___        ___ 
    |   |  |   |  |   |   |  |   |   |  |   |   |  |   |
e|-----------------------------|-------------------------|
B|-10h-12-10h-12-10h-12-(12)---|-8h-10--8h-10-(10)-8h-10-|
G|-----------------------------|-------------------------|
D|-----------------------------|-------------------------|
A|-----------------------------|-------------------------|
E|-----------------------------|-------------------------|

   E                  E
    ___
   |   | |            |   |   |  |
e|-----------------|-12\-----------|
B|-7br-7-5---------|-----p7r-(7)-5-|
G|-----------------|---------------|
D|-----------------|---------------|
A|-----------------|---------------|
E|-----------------|---------------|


*:·..·:*¨¨*:·..·:*¨¨*:·..·:*¨¨*


Start of the Second 12 Bars:

Lick 4
------
   E
           _   _ _        __ 
       |  | | | | |  |   |  | | | |
e|12\-----------3-5s-7-|-3h-4-------|
B|----p7r-5-5-5--------|------5-----|
G|---------------------|------------|
D|---------------------|------------|
A|---------------------|------------|
E|---------------------|------------|

Lick 5
------
    E                     E
     _       __ __         _    __
    | | |   |  |  |   |   | |  |  | |  |
e|----------------------|----------------|
B|----------10-12-------|----------------|
G|----9-11b------p11r-9-|----------------|
D|s11-------------------|11-9------------|
A|----------------------|-----11s-9-7v---|
E|----------------------|----------------|
 
Previous Lick  Previous | Next  Next Lick