+
- 
My Guitar Songbook
Good Evening  |  Sign In 
Hendrix Wild Thing Style  

Info  |  Tutorial  |  Tab  |  Rate It  |  Share
Hendrix Wild Thing Style - Robert Renman
 Arranged By: Robert Renman
 Audio Src: Tutorial
 Rated: ( 3 )  | 

Key A - 4/4 Time

        _   __   ___ 
   |   | | |  | |   |  |
e|-------5-----------------|
B|-----5---8p-5------------|
G|-7b-----------7br(7)-5vv-|
D|-------------------------|
A|-------------------------|
E|-------------------------|


*:·..·:*¨¨*:·..·:*¨¨*:·..·:*¨¨*


Key E (Transposed - Original Key A): 
-----


        _   __   ___ 
   |   | | |  | |   |  |
e|-------0---------------|
B|-----0---3p-0----------|
G|-2b-----------2br(2)-0-|
D|-----------------------|
A|-----------------------|
E|-----------------------|
Top
 
Previous Lick  Previous | Next  Next Lick