+
- 
My Guitar Songbook
Good Evening  |  Sign In 
Blues Lesson 1 to the 1  

Info  |  Tutorial  |  Tab  |  Rate It  |  Share
Blues Lesson 1 to the 1 - Jim Clymer
 Arranged By: Jim Clymer
 Audio Src: Tutorial
 Rated: ( 3 )  | 

Key A - 4/4 Time

    _    _   _  
   | |  | | | |   |
e|------------5-------|
B|--------5-7---s10vv-|
G|---5h-6-------------|
D|-7------------------|
A|--------------------|
E|--------------------|



*:·..·:*¨¨*:·..·:*¨¨*:·..·:*



Key E (Transposed - Original Key A):
-----

    _    _   _
   | |  | | | |  |
e|------------0-------|
B|--------0-2----s5vv-|
G|---0h-1-------------|
D|-2------------------|
A|--------------------|
E|--------------------|
Top
 
Previous Lick  Previous | Next  Next Lick