My Guitar Songbook
Good Morning  |  Sign In 
E Blues Scale Lick 2 

Lick Info  |  Tutorial  |  Tab  |  Rate
E Blues Scale Lick 2 - Jim Clymer ( 4 )
 Key E - 4/4 Time
 Arranged By: Jim Clymer
 Audio File From: Tutorial
Key E:
-----

     __   __   __   _    __   _    _
    |  | |  | |  | | |  |  | | |  | | |
e|--3b-0------0------0----------------0-|
B|-------0h-3------3--------------------|
G|--------------s4-----s2p-0---0h-1-----|
D|---------------------------2----------|
A|--------------------------------------|
E|----------------------------------0---|



*:·..·:*¨¨*:·..·:*¨¨*:·..·:*¨¨*



Key A (Transposed - Original Key E):
-----

     __   __   __   __    __   _    _
    |  | |  | |  | |  |  |  | | |  | | |
e|--8b-5------5------------------------5-|
B|-------5h-8------8-10------------------|
G|--------------s9------s7p-5---5h-6-----|
D|----------------------------7----------|
A|---------------------------------------|
E|-----------------------------------5---|


                             ---- OR ----


Key A (Transposed - Original Key: E)
-----

     _    __   ___   _   __   _   _ 
    | |  |  | |   | | | |  | | | | | |
e|--8b-5------5-------5--------------5-|
B|-------5h-8---4s5-8------------------|
G|---------------------s7p-5---5h6-----|
D|---------------------------7-----7---|
A|-------------------------------------|
E|-------------------------------------|
        
Lick Info  |  Tutorial  |  Tab (pdf)  |  Rate  | 
 
  Previous Lick  Previous | Next  Next Lick