+
- 
My Guitar Songbook
Good Morning  |  Sign In 
Hush, Little Baby (Lullaby)  

Info  |  Tutorial  |  Tab  |  Rate It  |  Share
Hush, Little Baby (Lullaby) - Helmut Bickel
 Arranged By: Helmut Bickel
 Audio Src: Tutorial
 Rated: ( 1 )  | 

Capo 4th Fret - 4/4 Time

Melody:
------

   C           G           G               C
      _           _         _   _     _
   | | | | |   | | | | |   | | | | | | |   | | | |
e|---0-0-0-1-|-0---------|-------------0-|---------|
B|---1---1---|-0-3-3-3---|-----3-3-3-3---|-3-1-1---|
G|-0---------|-----------|-0-0-----------|---------|
D|---2-----2-|---0-----0-|-----0-----0---|---2---2-|
A|-3-----3---|-----------|---------------|-3---3---|
E|-----------|-3-----3---|-3-------3-----|---------|

   C           G           G               C
      _           _         _   _     _
   | | | | |   | | | | |   | | | | | | |   | | | |
e|---0-0-0-1-|-0---------|-------------0-|---------|
B|---1---1---|-0-3-3-3---|-----3-3-3-3---|-3-1-1---|
G|-0---------|-----------|-0-0-----------|---------|
D|---2-----2-|---0-----0-|-----0-----0---|---2---2-|
A|-3-----3---|-----------|---------------|-3---3---|
E|-----------|-3-----3---|-3-------3-----|---------|


Chords and Lyrics:
-----------------

C                  G
Hush, little Baby, don't say a word,
G                      C
Mama's gonna buy you a Mockingbird.

And if that mockingbird don't sing,
Mama's gonna buy you a diamond ring.

And if that diamond ring turns brass,
Mama's gonna buy you a looking glass.

And if that looking glass gets broke,
Mama's gonna buy you a billy goat,

And if that billy goat won't pull,
Mama's gonna buy you a cart and bull,

And if that cart and bull turn over,
Mama's gonna buy you a dog named Rover.

And if that dog named Rover won't bark,
Mama's gonna buy you a horse and a cart.

And if that horse and cart fall down,
You'll still be the sweetest little baby in town.
Top
 
Previous Song  Previous | Next  Next Song