A +
A - 


Top
My Guitar Songbook
Good Morning  |  Sign In 
Repeater Lick 1  
  About  |  Tutorial  |  Tab (PDF)  |  Rate It  |  Share
Repeater Lick 1 - Robert Renman       mp3
 About this Lick
 Tutorial & Tab: Robert Renman
  Audio Clip from the Tutorial
 Rated: ( 1 ) |

 

Key A - 4/4 Time
Key A:
-----

           ___     ___          ___     _
   |  |   |   |   |   |    |   |   |   | |  |
e|---12--------------12-|(12)-----------------|
B|---13b-------------13-|(13b)----------------|
G|-------14p-12h-14-----|------7br(7)p-5------|
D|----------------------|----------------7p-5-|
A|----------------------|---------------------|
E|----------------------|---------------------|


*:·..·:*¨¨*:·..·:*¨¨*:·..·:*¨¨*


Key E (Transposed - Original Key A):
-----

         __    _          ___     _
   | |  |  |  | |    |   |   |   | |  |
e|---7----------7-|-(7)-----------------|
B|---8b---------8-|-(8b)----------------|
G|------9p-7h-9---|------2br(2)p-0------|
D|----------------|----------------2p-0-|
A|----------------|---------------------|
E|----------------|---------------------|
Previous Lick  Previous | Next  Next Lick