+
- 
My Guitar Songbook
Good Morning  |  Sign In 
Short Cool Blues Rock Lick  

Info  |  Tutorial  |  Tab  |  Rate It  |  Share
Short Cool Blues Rock Lick - Robert Renman
 Arranged By: Robert Renman
 Audio From: Tutorial
 Rated: ( 4 )  | 

Key E - 4/4 Time

Key E:
-----

    ___ __    ___ __    ___ __    ___ __  
   |   |  |  |   |  |  |   |  |  |   |  |
e|-------12--------12--------12--------12-|
B|----12----15p-12--------12----15p-12----|
G|14b-----------------14b-----------------|
D|----------------------------------------|
A|----------------------------------------|
E|----------------------------------------|



*:·..·:*¨¨*:·..·:*¨¨*:·..·:*¨¨*



Key E (Transposed one octave lower):
-----

    __ _   __ _   __ _   __ _  
   |  | | |  | | |  | | |  | |
e|------0------0------0------0-|
B|----0---3p-0------0---3p-0---|
G|-2b------------2b------------|
D|-----------------------------|
A|-----------------------------|
E|-----------------------------|
Top
 
Previous Lick  Previous | Next  Next Lick