+
- 
My Guitar Songbook
Good Morning  |  Sign In 
Stevie Ray Vaughan Style Lick

About  |  Tutorial  |  Tab  |  Rate It  |  Share
Stevie Ray Vaughan Style Lick - Jody Worrell
Lick from Jody Worrell
Audio clip from the Tutorial
About this Lick
Rated: ( 3 )  | 

 

Key A - 4/4 Time

   Dm7
     ___ __ __    __    __ __
    |   |  |  |  |  |  |  |  |
e|--------10----------10--------|
B|-----10----13-13b------13p-10-|
G|-12b--------------------------|
D|------------------------------|
A|------------------------------|
E|------------------------------|

   Dm7
    ___ ___    ___ ___ ___    ___
   |   |   |  |   |   |   |  |   |
e|----------------------------------|
B|----------------------------------|
G|12br(12)p10--------10vv--9s7-9s7--|
D|------------12p-10----------------|
A|----------------------------------|
E|----------------------------------|

   Am7
     ___ _ _    _   _ _
    |   | | |  | | | | |    | | | |
e|-------------5----------|---------|
B|-------------5----------|---------|
G|-(7)p-5------5----------|---------|
D|--------7-5--------5-7--|(7)------|
A|-----------------7------|---------|
E|------------------------|---------|



*:·..·:*¨¨*:·..·:*¨¨*:·..·:*¨¨*



Key E (Transposed - Original Key A):
-----


   Am7
     __ _ _   __   _ ___ 
    |  | | | |  | | |   |
e|-------5--------5-------|
B|-----5---8-8b-----8p-10-|
G|--7b--------------------|
D|------------------------|
A|------------------------|
E|------------------------|

   Am7
    ___ ___   __ _ ___    ___
   |   |   | |  | |   |  |   |
e|------------------------------|
B|------------------------------|
G|-7br(7)p-5------5vv--4s2-4s2--|
D|-----------7p-5---------------|
A|------------------------------|
E|------------------------------|

   Em7
     ___ _ _   _   _ _
    |   | | | | | | | |   | | | |
e|------------0---------|---------|
B|------------0---------|---------|
G|-(2)p-0-----0---------|---------|
D|--------2-0-------0-2-|(2)------|
A|----------------2-----|---------|
E|----------------------|---------|
Top
Previous Lick  Previous | Next  Next Lick