+
- 
My Guitar Songbook
Good Evening  |  Sign In 
Money (Pink Floyd) Lick 

Money (Pink Floyd) Lick - Justin Sandercoe
 Arranged By: Justin Sandercoe
 Audio Src: Tutorial
 Rated: ( 8 )  | 

Key Bm - 7/4 Time

Two Riffs that make up the Melody: 


Riff 1
------

      _   _       _ 
   | | | | | | | | | |
e|---------------------|
B|---------------------|
G|---4-----------------|
D|-----4---------------|
A|-2-----2-------2---5b|
E|-----------2-5-------|



Riff 2
------

    _   _       _       _ 
   | | | | | | | | |   | | | | | | |
e|-------------------|---------------|
B|-------------------|---------------|
G|-------------------|---------------|
D|-4---4---------4-3-|-2-------------|
A|-------4-----4-----|---2-------2-5-|
E|---------2-5-------|-----0-3-5-----|
Top
 
Previous Lick  Previous | Next  Next Lick