+
- 
My Guitar Songbook
Good Evening  |  Sign In 
Blues Rock Lead Guitar Lesson (49)  

Info  |  Tutorial  |  Tab  |  Rate It  |  Share
Blues Rock Lead Guitar Lesson (49) - Neal Walter
 Arranged By: Neal Walter
 Audio Src: Tutorial
 Rated: ( 3 )  | 

Key E - 4/4 Time

Used for Intros, Leads and/or Turnarounds:

                         E
    _   _   _   _   _     _     _ _     _ _ _ 
   | | | | | | | | | |   | | | | | | | | | | |   | 
e|-----4-----3-----2---|-0-0-------------------|-----
B|---------------------|-0-0-------------------|-----
G|-2s4---4s3---3s2---2-|-0h1-------------------|-----
D|---------------------|-----2-------------2---|-2---
A|---------------------|-------0-1-2v--2s4---4-|-2---
E|---------------------|-----------------------|-0---


*:·..·:*¨¨*:·..·:*¨¨*:·..·:*


Key A (Transposed - Original Key E):
-----
                         A
    _   _   _   _   _     _     _ _     _ _ _ 
   | | | | | | | | | |   | | | | | | | | | | |   |
e|-----9-----8-----7---|-----------------------|-----
B|---------------------|-5(5)------------------|-----
G|-7s9---9s8---8s7---7-|-5h6---------------2---|-2---
D|---------------------|-----7v--------2s4---4-|-2---
A|---------------------|-------5-6-7v----------|-0---
E|---------------------|-----------------------|-----
Top
 
Previous Lick  Previous | Next  Next Lick