+
- 
My Guitar Songbook
Good Morning  |  Sign In 
C Major Pentatonic Licks  

Info  |  Tutorial  |  Tab  |  Rate It  |  Share
C Major Pentatonic Licks - Peter Vogl
 Arranged By: Peter Vogl
 Audio Src: Tutorial
 Rated: ( 2 )  | 

Key C - 4/4 Time

Lick 1
------

MAJOR (Box 1)
    __ _      ___ 
   |  | | |  |   |  |
e|--------------------|
B|--------------------|
G|------5-7b-7br(7)-5-|
D|-5h-7---------------|
A|--------------------|
E|--------------------|

Lick 2
------

MAJOR (Box 4)
     __           
    |  |  |   |  |
e|-----------15-----|
B|----13-15b----15b-|
G|s14---------------|
D|------------------|
A|------------------|
E|------------------|

Lick 3
------

MAJOR (Box 1 Extended)
    _ _     _ __ 
   | | | | | |  | |
e|----------------8-|
B|-----------8-10---|
G|-------5-9--------|
D|---5-7------------|
A|s7----------------|
E|------------------|
Top
 
Previous Lick  Previous | Next  Next Lick