+
- 
My Guitar Songbook
Good Evening  |  Sign In 
Can't Help Falling in Love... 

Can't Help Falling in Love (Fingerstyle) - Rob Smith
 Artist: Rob Smith
 Audio Src: Tutorial
 Rated: ( 3 )  | 

Capo 2nd Fret - 6/8 Time

Intro:
-----

   C             G             C
    _ _   _ _     _ _   _ _     _ _   _ _
   | | | | | |   | | | | | |   | | | | | |
e|-0-----0-----|-------------|-------------|
B|---------1---|-3-----3-----|-------1-----|
G|-----0-----0-|-----0---0---|-----0---0---|
D|---2---------|---0-------0-|---2-------2-|
A|-3-----------|-------------|-3-----------|
E|-------------|-3-----------|-------------|

   C

   |  |
e|------|
B|------|
G|------|
D|------|
A|-3----|
E|------|


Verse 1, 2 and 3:
----------------

   C            G/B            Am
    _ _   _ _     _ _   _ _     _ _   _ _
   | | | | | |   | | | | | |   | | | | | |
e|-------0-----|-3-----------|-------0-----|
B|-1-------1---|---0---0-----|-1-------1---|
G|---0---------|-----0---0---|---2-------2-|
D|-----2-------|-------------|-----2-------|
A|-3-----------|-2-----------|-0-----------|
E|-------------|-------------|-------------|
1. Wise         men            say,
2. Shall        I              stay?
3. Take         my             hand

  Am            F              C
    _ _   _ _     _ _   _ _     _ _   _ _
   | | | | | |   | | | | | |   | | | | | |
e|-------0---0-|-1-----------|-0-----------|
B|---------3---|---1---1-----|---1---1-----|
G|-----2-------|-----2---2---|-----0---0---|
D|---2---------|-----------3-|-------------|
A|-0-----------|-3-----------|-3-----------|
E|-------------|-------------|-------------|
1.         only fools          rush
2. Would it     be             a
3. Take my      whole          life

   G                           F
    _ _   _ _     _ _   _ _     _ _   _ _
   | | | | | |   | | | | | |   | | | | | |
e|-------0-----|-------0-----|-------------|
B|-3-------3---|-----3---3---|-------------|
G|-0-0---------|---0-------0-|-2-----2-----|
D|-----0-------|-0-----------|---3-----3---|
A|-------------|-------------|-----3-----3-|
E|-3-----------|-------------|-1-----------|
1. in.                         I
2. sin?                   if   I
3. too                    for  I

   G             Am            Am
    _ _   _ _     _ _   _ _     _ _   _ _ 
   | | | | | |   | | | | | |   | | | | | |
e|-------------|-------0-----|-----0-----1-|
B|-0-----0-----|-1-------1---|-3-----------|
G|---0-----0---|---2-------2-|---2---------|
D|-----0-----0-|-----2-------|-------------|
A|-------------|-0-----------|-0-----------|
E|-3-----3-----|-------------|-------------|
1. can't         help         falling    in
2. can't         help         falling    in
3. can't         help         falling    in

   C             G             C
    _ _   _ _     _ _   _ _     _ _   _ _
   | | | | | |   | | | | | |   | | | | | |
e|-0-----0-----|-------------|-------0-----|
B|---1-----1---|-3-----3-----|-1-------1---|
G|-----0-----0-|---0-----0---|---0-------0-|
D|-------------|-----0-----0-|-----2-------|
A|-3-----------|-------------|-3-----------|
E|-------------|-3-----------|-------------|
1. Love        with            you.                
2. Love        with            you.
3. Love        with            you.

   C
    _ _   _ _ 
   | | | | | |
e|-------0-----|
B|---------1---|
G|-----0-----0-|
D|---2---------|
A|-3-----------|
E|-------------|
1.         to 2nd Verse.. 
2.         to Chorus..
3.         to Chorus..


Chorus:
------

  Em             B7            Em
    _ _   _ _     _ _   _ _     _ _   _ _ 
   | | | | | |   | | | | | |   | | | | | |
e|-------------|-------------|-------------|
B|-----------0-|-------0-----|-----------0-|
G|-----0---2---|-2---2---2---|-----0---2---|
D|-2-----2-----|---1-------1-|-2-----2-----|
A|---2---------|-2-----------|---2---------|
E|-0-----------|-------------|-0-----------|
  Like a river flows.          Surely to the

   B7            Em            B7
    _ _   _ _     _ _   _ _     _ _   _ _
   | | | | | |   | | | | | |   | | | | | |
e|-------------|-------------|-------------|
B|-------0-----|-----------0-|-------0-----|
G|-2---2---2---|-----0---2---|-2---2---2---|
D|---1-------1-|-2-----2-----|---1-------1-|
A|-2-----------|---2---------|-2-----------|
E|-------------|-0-----------|-------------|
   sea.          Darling, so it goes.

   Am            Am           Dm
    _ _   _ _     _ _   _ _     _ _   _ _
   | | | | | |   | | | | | |   | | | | | |
e|-------------|-----0---3-0-|-1-----1-----|
B|-1---1-------|-1-----------|---3-----3---|
G|---2-------2-|---2---2-----|-----2-----2-|
D|---------2---|-------------|-0-----------|
A|-0-----0-----|-------------|-------------|
E|-------------|-------------|-------------|
  Some things are meant to     be

   G
    _ _   _ _
   | | | | | |
e|-3-----3-----|
B|---3---------|
G|-----0-------|
D|-------------|
A|-------------|
E|-3-----------|
      to 3rd Verse..
      to 4th Verse..

Verse 4:
-------

   C            G/B            Am
    _ _   _ _     _ _   _ _     _ _   _ _
   | | | | | |   | | | | | |   | | | | | |
e|-------------|-3-----------|-------------|
B|-1-----------|-------------|-1-----------|
G|-------------|-------------|-------------|
D|-------------|-------------|-------------|
A|-3-----------|-2-----------|-0-----------|
E|-------------|-------------|-------------|
   Take         my             hand.

   Am            F             C
    _ _   _ _     _ _   _ _     _ _   _ _
   | | | | | |   | | | | | |   | | | | | |
e|-----------0-|-1-----------|-0-----------|
B|---------3---|-------------|-------------|
G|-------------|-------------|-------------|
D|-------------|-------------|-------------|
A|-------------|-------------|-3-----------|
E|-------------|-1-----------|-------------|
         Take my whole        life

    G            G             F
    _ _   _ _     _ _   _ _     _ _   _ _
   | | | | | |   | | | | | |   | | | | | |
e|-------------|-------0-----|-------------|
B|-3-----------|-----3---3---|-------------|
G|-------------|---0-------0-|-2-----2-----|
D|-------------|-0-----------|---3-----3---|
A|-------------|-------------|-----3-----3-|
E|-3-----------|-------------|-1-----------|
   too.                   For  I

   G             Am            Am
    _ _   _ _     _ _   _ _     _ _   _ _
   | | | | | |   | | | | | |   | | | | | |
e|-------------|-------0-----|-----0-----1-|
B|-0-----0-----|-1-------1---|-3-----------|
G|---0-----0---|---2-------2-|---2---------|
D|-----0-----0-|-----2-------|-------------|
A|-------------|-0-----------|-0-----------|
E|-3-----3-----|-------------|-------------|
  can't          help          falling   in 

   C             G             C
    _ _   _ _     _ _   _ _     _ _   _ _ 
   | | | | | |   | | | | | |   | | | | | |
e|-0-----0-----|-------------|-------0-----|
B|---1-----1---|-3-----3-----|-1-------1---|
G|-----0-----0-|---0-----0---|---0-------0-|
D|-------------|-----0-----0-|-----2-------|
A|-3-----------|-------------|-3-----------|
E|-------------|-3-----------|-------------|
  love           with         you.

   C             F             G
    _ _   _ _     _ _   _ _     _ _   _ _
   | | | | | |   | | | | | |   | | | | | |
e|-------0-----|-------------|-------------|
B|---------1---|-------------|-0-----0-----|
G|-----0-----0-|-2-----2-----|---0-----0---|
D|---2---------|---3-----3---|-----0-----0-|
A|-3-----------|-----3-----3-|-------------|
E|-------------|-1-----------|-3-----3-----|
             For I            can't

  Am             Am            C
    _ _   _ _     _ _   _ _     _ _   _ _
   | | | | | |   | | | | | |   | | | | | |
e|-------0-----|-------0---1-|-0-----3-----|
B|-1-------1---|-3-----------|---1---------|
G|---2-------2-|---2---------|-----0-------|
D|-----2-------|-----2-------|-------------|
A|-0-----------|-0-----------|-3-----------|
E|-------------|-------------|-------------|
   help       falling      in  love

   G             C             C
    _ _   _ _     _ _   _ _     _ _   _ _
   | | | | | |   | | | | | |   | | | | | |
e|-------3-----|-------0-----|-8-----------|
B|-3-----------|-1-----------|-8-----------|
G|-0-0---------|-0-0---------|-9-----------|
D|-0---0-------|-2---2-------|-------------|
A|-------------|-3-----------|-------------|
E|-3-----------|-------------|-------------|
  with           you


*:·..·:*¨¨*:·..·:*¨¨*:·.


Lyrics and Chords:
-----------------

Verse 1:
-------

C    G/B  Am   '
Wise men say
     F     C    G   '
Only fools rush in
F     G/B   Am
But I can't help
     F     C    G    C   '
Falling in love with you


Verse 2:
-------

Shall I stay?
Would it be a sin?
If I can't help
Falling in love with you


Chorus 1:
--------

Em           B7
Like a river flows
Em           B7
Surely to the sea
Em           B7
Darling, so it goes
Am           '           Dm    G
Some things are meant to be


Verse 3:
-------

Take my hand
Take my whole life too
For I can't help
Falling in love with you


Chorus 2:
--------

Like a river flows
Surely to the sea
Darling, so it goes
Some things are meant to be


Verse 4:
------

Take my hand
Take my whole life too
For I can't help
Falling in love with you
For I can't help
Falling in love with you
 
Previous Song  Previous | Next  Next Song