My Guitar Songbook
Good Morning   |  Sign In 
Can't Help Falling in Love...  Info Info

Breakdown Tutorial  |  MyTab MyTab

Can't Help Falling in Love (Fingerstyle) - Rob Smith

Setup & Info:

 Capo 2nd Fret
 Timing: 6/8
 Arranged By: Rob Smith
 Audio File From: Rob Smith’s Tutorial
 Download: MyTab

Intro:
-----

   C             G             C             C
    _ _   _ _     _ _   _ _     _ _   _ _
   | | | | | |   | | | | | |   | | | | | |   |
e|-0-----0-----|-------------|-------------|-------|
B|---------1---|-3-----3-----|-------1-----|-------|
G|-----0-----0-|-----0---0---|-----0---0---|-------|
D|---2---------|---0-------0-|---2-------2-|-------|
A|-3-----------|-------------|-3-----------|-3-----|
E|-------------|-3-----------|-------------|-------|


Verse 1, 2 & 3:
--------------

   C            G/B            Am
    _ _   _ _     _ _   _ _     _ _   _ _
   | | | | | |   | | | | | |   | | | | | |
e|-------0-----|-3-----------|-------0-----|
B|-1-------1---|---0---0-----|-1-------1---|
G|---0---------|-----0---0---|---2-------2-|
D|-----2-------|-------------|-----2-------|
A|-3-----------|-2-----------|-0-----------|
E|-------------|-------------|-------------|
1. Wise         men            say,
2. Shall        I              stay?
3. Take         my             hand

  Am            F              C
    _ _   _ _     _ _   _ _     _ _   _ _
   | | | | | |   | | | | | |   | | | | | |
e|-------0---0-|-1-----------|-0-----------|
B|---------3---|---1---1-----|---1---1-----|
G|-----2-------|-----2---2---|-----0---0---|
D|---2---------|-----------3-|-------------|
A|-0-----------|-3-----------|-3-----------|
E|-------------|-------------|-------------|
1.         only fools          rush
2. Would it     be             a
3. Take my      whole          life

   G                           F
    _ _   _ _     _ _   _ _     _ _   _ _
   | | | | | |   | | | | | |   | | | | | |
e|-------0-----|-------0-----|-------------|
B|-3-------3---|-----3---3---|-------------|
G|-0-0---------|---0-------0-|-2-----2-----|
D|-----0-------|-0-----------|---3-----3---|
A|-------------|-------------|-----3-----3-|
E|-3-----------|-------------|-1-----------|
1. in.                         I
2. sin?                   if   I
3. too                    for  I

   G             Am            Am
    _ _   _ _     _ _   _ _     _ _   _ _ 
   | | | | | |   | | | | | |   | | | | | |
e|-------------|-------0-----|-----0-----1-|
B|-0-----0-----|-1-------1---|-3-----------|
G|---0-----0---|---2-------2-|---2---------|
D|-----0-----0-|-----2-------|-------------|
A|-------------|-0-----------|-0-----------|
E|-3-----3-----|-------------|-------------|
1. can't         help         falling    in
2. can't         help         falling    in
3. can't         help         falling    in

   C             G             C             C
    _ _   _ _     _ _   _ _     _ _   _ _     _ _   _ _ 
   | | | | | |   | | | | | |   | | | | | |   | | | | | |
e|-0-----0-----|-------------|-------0-----|-------0-----|
B|---1-----1---|-3-----3-----|-1-------1---|---------1---|
G|-----0-----0-|---0-----0---|---0-------0-|-----0-----0-|
D|-------------|-----0-----0-|-----2-------|---2---------|
A|-3-----------|-------------|-3-----------|-3-----------|
E|-------------|-3-----------|-------------|-------------|
1. Love        with            you.                to 2nd Verse..
2. Love        with            you.                to Chorus..
3. Love        with            you.                to Chorus..


Chorus:
------

  Em             B7            Em
    _ _   _ _     _ _   _ _     _ _   _ _ 
   | | | | | |   | | | | | |   | | | | | |
e|-------------|-------------|-------------|
B|-----------0-|-------0-----|-----------0-|
G|-----0---2---|-2---2---2---|-----0---2---|
D|-2-----2-----|---1-------1-|-2-----2-----|
A|---2---------|-2-----------|---2---------|
E|-0-----------|-------------|-0-----------|
  Like a river flows.          Surely to the

   B7            Em            B7
    _ _   _ _     _ _   _ _     _ _   _ _
   | | | | | |   | | | | | |   | | | | | |
e|-------------|-------------|-------------|
B|-------0-----|-----------0-|-------0-----|
G|-2---2---2---|-----0---2---|-2---2---2---|
D|---1-------1-|-2-----2-----|---1-------1-|
A|-2-----------|---2---------|-2-----------|
E|-------------|-0-----------|-------------|
   sea.          Darling, so it goes.

   Am            Am           Dm             G
    _ _   _ _     _ _   _ _     _ _   _ _     _ _   _ _
   | | | | | |   | | | | | |   | | | | | |   | | | | | |
e|-------------|-----0---3-0-|-1-----1-----|-3-----3-----|
B|-1---1-------|-1-----------|---3-----3---|---3---------|
G|---2-------2-|---2---2-----|-----2-----2-|-----0-------|
D|---------2---|-------------|-0-----------|-------------|
A|-0-----0-----|-------------|-------------|-------------|
E|-------------|-------------|-------------|-3-----------|
  Some things are meant to     be                to 3rd Verse..
                                                 to 4th Verse..


Verse 4:
-------

   C            G/B            Am
    _ _   _ _     _ _   _ _     _ _   _ _
   | | | | | |   | | | | | |   | | | | | |
e|-------------|-3-----------|-------------|
B|-1-----------|-------------|-1-----------|
G|-------------|-------------|-------------|
D|-------------|-------------|-------------|
A|-3-----------|-2-----------|-0-----------|
E|-------------|-------------|-------------|
   Take         my             hand.

   Am            F             C
    _ _   _ _     _ _   _ _     _ _   _ _
   | | | | | |   | | | | | |   | | | | | |
e|-----------0-|-1-----------|-0-----------|
B|---------3---|-------------|-------------|
G|-------------|-------------|-------------|
D|-------------|-------------|-------------|
A|-------------|-------------|-3-----------|
E|-------------|-1-----------|-------------|
         Take my whole        life

    G            G             F
    _ _   _ _     _ _   _ _     _ _   _ _
   | | | | | |   | | | | | |   | | | | | |
e|-------------|-------0-----|-------------|
B|-3-----------|-----3---3---|-------------|
G|-------------|---0-------0-|-2-----2-----|
D|-------------|-0-----------|---3-----3---|
A|-------------|-------------|-----3-----3-|
E|-3-----------|-------------|-1-----------|
   too.                   For  I

   G             Am            Am
    _ _   _ _     _ _   _ _     _ _   _ _
   | | | | | |   | | | | | |   | | | | | |
e|-------------|-------0-----|-----0-----1-|
B|-0-----0-----|-1-------1---|-3-----------|
G|---0-----0---|---2-------2-|---2---------|
D|-----0-----0-|-----2-------|-------------|
A|-------------|-0-----------|-0-----------|
E|-3-----3-----|-------------|-------------|
  can't          help          falling   in 

   C             G             C
    _ _   _ _     _ _   _ _     _ _   _ _ 
   | | | | | |   | | | | | |   | | | | | |
e|-0-----0-----|-------------|-------0-----|
B|---1-----1---|-3-----3-----|-1-------1---|
G|-----0-----0-|---0-----0---|---0-------0-|
D|-------------|-----0-----0-|-----2-------|
A|-3-----------|-------------|-3-----------|
E|-------------|-3-----------|-------------|
  love           with         you.

   C             F             G
    _ _   _ _     _ _   _ _     _ _   _ _
   | | | | | |   | | | | | |   | | | | | |
e|-------0-----|-------------|-------------|
B|---------1---|-------------|-0-----0-----|
G|-----0-----0-|-2-----2-----|---0-----0---|
D|---2---------|---3-----3---|-----0-----0-|
A|-3-----------|-----3-----3-|-------------|
E|-------------|-1-----------|-3-----3-----|
             For I            can't

  Am             Am            C
    _ _   _ _     _ _   _ _     _ _   _ _
   | | | | | |   | | | | | |   | | | | | |
e|-------0-----|-------0---1-|-0-----3-----|
B|-1-------1---|-3-----------|---1---------|
G|---2-------2-|---2---------|-----0-------|
D|-----2-------|-----2-------|-------------|
A|-0-----------|-0-----------|-3-----------|
E|-------------|-------------|-------------|
   help       falling      in  love

   G             C             C
    _ _   _ _     _ _   _ _     _ _   _ _
   | | | | | |   | | | | | |   | | | | | |
e|-------3-----|-------0-----|-8-----------|
B|-3-----------|-1-----------|-8-----------|
G|-0-0---------|-0-0---------|-9-----------|
D|-0---0-------|-2---2-------|-------------|
A|-------------|-3-----------|-------------|
E|-3-----------|-------------|-------------|
  with           you


*:·..·:*¨¨*:·..·:*¨¨*:·..·:*¨¨*:·..·:*¨¨*:


Lyrics and Chords:
-----------------

Verse 1:
-------

C    G/B  Am   '
Wise men say
     F     C    G   '
Only fools rush in
F     G/B   Am
But I can't help
     F     C    G    C   '
Falling in love with you


Verse 2:
-------

Shall I stay?
Would it be a sin?
If I can't help
Falling in love with you


Chorus 1:
--------

Em           B7
Like a river flows
Em           B7
Surely to the sea
Em           B7
Darling, so it goes
Am           '           Dm    G
Some things are meant to be


Verse 3:
-------

Take my hand
Take my whole life too
For I can't help
Falling in love with you


Chorus 2:
--------

Like a river flows
Surely to the sea
Darling, so it goes
Some things are meant to be


Verse 4:
------

Take my hand
Take my whole life too
For I can't help
Falling in love with you
For I can't help
Falling in love with you
        
  Tutorial  |  MyTab MyTab
 
 

Song Facts
Rate this Song
Website Stats
Can't Help Falling in Love... - Rob Smith
Can't Help Falling in Love (Fingerstyle) - Rob Smith
This version of the song is arranged by Rob Smith - LetsPlayGuitar.com: https://www.patreon.com/swiftlessons

Visit LetsPlayGuitar - https://www.patreon.com/swiftlessons - Connect directly and build community with your most engaged fans. Test new work in a supportive environment. Establish a reliable, recurring revenue stream. Their aim is to give you the best quality acoustic guitar lessons mainly through tutorials on how to play different songs in different styles and at the same time, helping you progress!

Facebook Page: https://www.facebook.com/letsplayguitarofficial

*:·..·:*¨¨*:·..·:*¨¨*:·..·:*¨¨*:·..·:*¨¨*

"Can't Help Falling in Love" is a 1961 song recorded by American singer Elvis Presley for the album Blue Hawaii (1961). It was written by Hugo Peretti, Luigi Creatore, and George David Weiss and published by Gladys Music, Inc. The melody is based on "Plaisir d'amour", a popular French love song composed in 1784 by Jean-Paul-Égide Martini. The song was initially written for a woman as "Can't Help Falling in Love with Him", which explains the first and third line ending on "in" and "sin" rather than words rhyming with "you".

Elvis Presley YouTube Video - https://www.youtube.com/watch?v=pXhKWWCCdk8

Source: Wikipedia, The Free Encyclopedia

Can't Help Falling in Love... - Rob Smith




Can't Help Falling in Love... - Rob Smith
Adder: Bill Charrette [ willc ]
Date: 9/15/2020
Audio Src: Rob Smith’s Tutorial
Rated: (3) Hot! Popular!
Views: 1689
Tab Hits: 541
Genre: Pop
 
  Previous Song  Previous | Next  Next Song   

Please visit Rob Smith’s Tutorial for the full lesson and official audio for this arrangement.

The Tab file here is my own work and represents my interpretation of the song. The file is put together and formatted in Notepad, transformed to MS Word and converted to PDF format. Tab files with reference to any artist are not meant to be actual transcriptions of copyrighted material. All rights belong to the copyright holders.

 Download: MyTab