Good Morning: Guitar Player
Solo Lick EC Style 1   Previous Lick | Next Lick

Audio, Chords & Tab    [ About ] View pdf to Save / Print composition pdf
Solo Lick EC Style 1 - 12bar Blues Guitar
* Audio file extracted from contributor’s website

Solo Lick EC Style 1 - 12bar Blues Guitar  (4/4 - Key E )

Key E:
-----

   E
    ___    ___    ___    ___    ___    ___   ___    ___    ___ 
   |   |  |   |  |   |  |   |  |   |  |   | |   |  |   |  |   |
e|-------12------------12vv---12-14b--r--14vv--12--14-(15)r--12-|
B|----12-----12-15b---------------------------------------------|
G|14b-----------------------------------------------------------|
D|--------------------------------------------------------------|
A|--------------------------------------------------------------|
E|--------------------------------------------------------------|

    ___    ___    ___  
   |   |  |   |  |   |
e|---------------------|
B|---------------------|
G|14br--p12------------|
D|-----------14--12-14-|
A|---------------------|
E|---------------------|


*:·..·:*¨¨*:·..·:*¨¨*:·..·:*¨¨*:·..·:*¨¨*:·..·:*¨¨*:·..·:*


   E (one octave lower than the above tab)
    ___    ___    ___    ___    ___    ___   ___    ___    ___ 
   |   |  |   |  |   |  |   |  |   |  |   | |   |  |   |  |   |
e|--------0-------------0vv----0--2b-(2)r-2vv---0--2--(3)-r---0-|
B|-----0------0--3b---------------------------------------------|
G|-2b-----------------------------------------------------------|
D|--------------------------------------------------------------|
A|--------------------------------------------------------------|
E|--------------------------------------------------------------|


    ___    ___    ___ 
   |   |  |   |  |   |
e|---------------------|
B|---------------------|
G|-2br---p0------------|
D|------------2--0---2-|
A|---------------------|
E|---------------------|
        
 
 
Info Show/Hide: Song Information
Stats Song Stats
Rate Show/Hide: Rate this Song
 

Song Info  Solo Lick EC Style 1 - 12bar Blues Guitar
Solo Lick EC Style 1 - 12bar Blues Guitar
Let's play a short "virtual Eric Clapton style" solo. We play at the 1st fingering pattern of the E scale at the 12th fret, starting from E (root note). Then we add a note from the major scale with a bending into the next minor. We close the solo with a descending lick including a release bend and end again on the root note E

Source: 12bar Blues Guitar

Rate this Song  Solo Lick EC Style 1 - 12bar Blues Guitar




Song Stats  Solo Lick EC Style 1 - 12bar Blues Guitar
Adder: Bill Charrette [ willc ]
Date: 1/28/2013
Tab By: willc
Rated: (3) Hot! Popular!
Views: 443
pdf Hits: 307
Genre: Licks
 
  Previous Lick | Next Lick

My Guitar SongbookThe Tab and Notation files are my own work and represent my interpretation of the songs. These files are put together and formatted in Notepad, transformed to MS Word and converted to pdf format to save or print the composition.

The Song audio files are gathered from my personal music library. I do not own the copyright of the songs and audio files, all rights belong to the copyright holders – no copyright infringement is intended.

The Lick samples are gathered from talented online teachers and tabbed in the key in which they were found. Many have been transposed in the Key of Am - at the 5th fret (a popular key when playing the Blues) or the Key of Em - the "guitar key" (all open strings belong to this scale and the most common key for Delta Blues).

For superb lessons, original videos and tabs etc. check out the many websites and Resources mentioned throughout this site.