Good Morning: Guitar Player
Solo Licks 10 and 11   Previous Lick | Next Lick

Audio, Chords & Tab    [ About ] View pdf to Save / Print composition pdf
Solo Licks 10 and 11 - 12bar Blues Guitar
* Audio file extracted from contributor’s website

Solo Licks 10 and 11 - 12bar Blues Guitar  (4/4 - Key E )

Solo Lick 10:


Key E:
-----

   E
    ___    ___    ___    ___     ___    ___   ___ 
   |   |  |   |  |   |  |   |   |   |  |   | |   |
e|----15b-12---------12----------------------------|
B|12----------12-15b-------------------------------|
G|-------------------------14brp12-----12----------|
D|---------------------------------14-------14vv---|
A|-------------------------------------------------|
E|-------------------------------------------------|



   E (one octave lower than the above tab)
    ___    ___    ___    ___     ___    ___   ___ 
   |   |  |   |  |   |  |   |   |   |  |   | |   |
e|-----3b-0----------0-----------------------------|
B|-0----------0--3b--------------------------------|
G|--------------------------2brp0------0-----------|
D|----------------------------------2--------2vv---|
A|-------------------------------------------------|
E|-------------------------------------------------|


*:·..·:*¨¨*:·..·:*¨¨*:·..·:*¨¨*:·..·:*¨¨*:·..·:*¨¨*:·..·:*


Solo Lick 11:


Key E:
-----

   E
    ___    ___    ___    ___     ___    ___   ___ 
   |   |  |   |  |   |  |   |   |   |  |   | |   |
e|----15b-12---------12----------------------------|
B|12----------12-15b-------------------------------|
G|-------------------------14brp12-----12---13vvv--|
D|---------------------------------14--------------|
A|-------------------------------------------------|
E|-------------------------------------------------|



   E (one octave lower than the above tab)
    ___    ___    ___    ___     ___    ___   ___ 
   |   |  |   |  |   |  |   |   |   |  |   | |   |
e|-----3b-0----------0-----------------------------|
B|-0----------0--3b--------------------------------|
G|--------------------------2brp0------0-----1vvv--|
D|----------------------------------2--------------|
A|-------------------------------------------------|
E|-------------------------------------------------|
        
 
 
Info Show/Hide: Song Information
Stats Song Stats
Rate Show/Hide: Rate this Song
 

Song Info  Solo Licks 10 and 11 - 12bar Blues Guitar
Solo Licks 10 and 11 - 12bar Blues Guitar
Solo Lick 10:
------------

A good way to learn how to put more feeling into your sound is trying to sound like a voice. Let's have a look at the example, The lick uses only the minor pentatonic ending with the root note. The vocal for this part could be something like "My baby left me, I cried all night". We play in the key of E, 12th fret.

*:·..·:*¨¨*:·..·:*¨¨*:·..·:*¨¨*:·..·:*¨¨*:·..·:*¨¨*:·..·:*

Solo Lick 11:
------------

This example ends with a note from the major scale. This gives a different color to this lick. The same vocal as above now sounds really like a question: "My baby left me, what going on?". This lick has an open end, it needs to be continued. If we use the A-A-B Blues structure, now part B must follow like "If she can't make it, yeah, her sister Betty will do..."

Source: 12bar Blues Guitar

Rate this Song  Solo Licks 10 and 11 - 12bar Blues Guitar




Song Stats  Solo Licks 10 and 11 - 12bar Blues Guitar
Adder: Bill Charrette [ willc ]
Date: 1/28/2013
Tab By: willc
Rated: (4) Hot! Popular!
Views: 445
pdf Hits: 301
Genre: Licks
 
  Previous Lick | Next Lick

My Guitar SongbookThe Tab and Notation files are my own work and represent my interpretation of the songs. These files are put together and formatted in Notepad, transformed to MS Word and converted to pdf format to save or print the composition.

The Song audio files are gathered from my personal music library. I do not own the copyright of the songs and audio files, all rights belong to the copyright holders – no copyright infringement is intended.

The Lick samples are gathered from talented online teachers and tabbed in the key in which they were found. Many have been transposed in the Key of Am - at the 5th fret (a popular key when playing the Blues) or the Key of Em - the "guitar key" (all open strings belong to this scale and the most common key for Delta Blues).

For superb lessons, original videos and tabs etc. check out the many websites and Resources mentioned throughout this site.