My Guitar Songbook
Good Morning: Guitar Player
Hello  [ About ]  

Audio, Chords & Tab View pdf to Save / Print composition pdf
Hello - Adele
* Audio file gathered from willc's personal music library

Hello - Adele  (4/4 - Capo 1st Fret)

Arranged by Justin Sandercoe - JustinGuitar.com
 

Intro:  (Em, G, D, C)
-----

   Em       G        D        C
e|--------|--------|--------|--------|
B|--------|-0------|--------|--------|
G|-0------|-0------|-2------|-0------|
D|-2------|-0------|-4------|-2------|
A|-2------|--------|-5------|-3------|
E|-0------|-3------|--------|--------|


Verse:  (Same as Intro:  Em, G, D, C)
-----

   Em       G        D        C
e|--------|--------|--------|--------|
B|--------|-0------|--------|--------|
G|-0------|-0------|-2------|-0------|
D|-2------|-0------|-4------|-2------|
A|-2------|--------|-5------|-3------|
E|-0------|-3------|--------|--------|


Em           G         D      C
Hello,       it's             me.
       Em         G                D                 C
I was wondering if after all these years you'd like to meet, to 
Em  G     D    C
go over everything
               Em             G                       D         C
They say that time's supposed to heal you, but I ain't done much healing.

  Em G         D    C
Hello, can you hear me?
       Em        G               D         C
I'm in California dreaming about who we used to be when we
Em    G    D   C
were younger and free.
         Em        G                  D            C
I've forgotten how it felt before the world fell at our feet.


Pre-Chorus:  (Bar Chords - Em, D, Bm/F#, C/G)
----------

   Em       D        Bm/F#    C/G
e|--------|--------|--------|--------|
B|-9------|-7------|-3------|-5------|
G|10------|-7------|-4------|-5------|
D|10------|-7------|-4------|-5------|
A|-8------|-5------|--------|--------|
E|--------|--------|-2------|-3------|

   Em       D        C/G       '
e|--------|--------|--------|--------|
B|-9------|-7------|-5------|-(5)----|
G|10------|-7------|-5------|-(5)----|
D|10------|-7------|-5------|-(5)----|
A|-8------|-5------|--------|--------|
E|--------|--------|-3------|-(3)----|

                Em       D  Bm/F#  C/G
There's such a difference between us
       Em  D  C/G   '
and a million miles.


Chorus:  (Em, C, G, D - tap on the beat 2)
------

   Em  [tap]   C  [tap]     G  [tap]     D  [tap]
e|-----------|------------|------------|-2----------|
B|-0---------|-1----------|-0----------|-3----------|
G|-0---------|-0----------|-0----------|-2----------|
D|-2---------|-2----------|-0----------|-0----------|
A|-----------|-3----------|------------|------------|
E|-0---------|------------|-3----------|------------|

Em          C         G    D
Hello from the other side,
  Em             C          G  D
I must've called a thousand times to tell you
Em   C               G              D
I'm sorry, for everything that I've done,
            Em       C    G         D
But when I call you never seem to be home.
Em         C      G    D
Hello from the outside,
   Em           C             G D
At least I can say that I've tried to tell you
Em    C         G           D
I'm sorry, for breaking your heart
                 Em       C             G        D
But it don't matter, it clearly doesn't tear you apart anymore.


Instrumental: (Same as Intro & Verse:  Em, G, D, C)
------------

   Em       G        D        C
e|--------|--------|--------|--------|
B|--------|-0------|--------|--------|
G|-0------|-0------|-2------|-0------|
D|-2------|-0------|-4------|-2------|
A|-2------|--------|-5------|-3------|
E|-0------|-3------|--------|--------|


Verse:
-----

   Em G    D      C
Hello, how are you?
        Em       G             D            C
It's so typical of me to talk about myself, I'm sorry
   Em G            D     C
I hope that you're well
        Em         G                        D       C
Did you ever make it out of that town where nothing ever happened?


Pre-Chorus:
----------

         Em D          Bm/F#    C/G
It's no secret that the both of us
     Em      D      C/G   '
are running out of time.


Chorus:
------

    Em          C         G    D
So, hello from the other side,
  Em             C          G  D
I must've called a thousand times to tell you
Em   C               G             D
I'm sorry, for everything that I've done,
            Em       C    G         D
But when I call you never seem to be home.
Em         C      G    D
Hello from the outside,
   Em           C             G D
At least I can say that I've tried to tell you
Em    C         G           D
I'm sorry, for breaking your heart
                 Em       C             G        D
But it don't matter, it clearly doesn't tear you apart anymore.


Bridge: (Em, C, D, G)
------

  Em           C            D            G
e|-----------|------------|-2----------|------------|
B|-0---------|-1----------|-3----------|-0----------|
G|-0---------|-0----------|-2----------|-0----------|
D|-2---------|-2----------|-0----------|-0----------|
A|-----------|-3----------|------------|------------|
E|-0---------|------------|------------|-3----------|


   Em         C     D     G
Anymore oh         ooooohh
   Em         C     D     G
Anymore oh         ooooohh
   Em         C     D     G
Anymore oh         ooooohh
   Em         C     D     '
Anymore ohhhh      anymore


Chorus:
------

    Em          C         G    D
So, hello from the other side,
  Em             C          G  D
I must've called a thousand times to tell you
Em   C               G             D
I'm sorry, for everything that I've done,
            Em       C    G         D
But when I call you never seem to be home.
Em         C      G    D
Hello from the outside,
   Em           C             G D
At least I can say that I've tried to tell you
Em    C         G           D
I'm sorry, for breaking your heart
                 Em       C             G        D
But it don't matter, it clearly doesn't tear you apart anymore.


Outro: (Same as Intro & Verse:  Em, G, D, C)
-----

   Em       G        D        C
e|--------|--------|--------|--------|
B|--------|-0------|--------|--------|
G|-0------|-0------|-2------|-0------|
D|-2------|-0------|-4------|-2------|
A|-2------|--------|-5------|-3------|
E|-0------|-3------|--------|--------|
        
 
 
Info Show/Hide: Song Information
Stats Song Stats
Rate Show/Hide: Rate this Song
 

Song Info  Hello - Adele
Hello - Adele
"Hello" is a song by British singer-songwriter Adele, released on 23 October 2015 by XL Recordings as the lead single from her third studio album, 25 (2015). Adele co-wrote the song with her producer, Greg Kurstin. "Hello" is a piano ballad with soul influences, and lyrics that discuss themes of nostalgia and regret. Upon release, the song was acclaimed by music critics, who compared it favourably to Adele's previous work and praised the song's lyrics and Adele's vocals. It was recorded in London's Metropolis Studios.

"Hello" reached number one in almost every country it charted in, including the United Kingdom, where it became her second chart topper, following "Someone Like You", and has the largest opening week sales in three years. In the United States, "Hello" debuted at the top of the Billboard Hot 100, reigning for 10 consecutive weeks whilst becoming Adele's fourth number-one on the chart and breaking several records, including becoming the first song to sell over a million digital copies in a week. By the end of 2015, it had sold 12.3 million units globally (combined sales and track-equivalent streams) and was the year's 7th best-selling single while it stands as one of the best-selling singles of all-time.

Source: Wikipedia, the free encyclopedia

Rate this Song  Hello - Adele




Song Stats  Hello - Adele
Adder: Bill Charrette [ willc ]
Date: 11/15/2019
Updated: 11/18/2019
Tab By: willc
Rated: (1) Hot!
Views: 48
pdf Hits: 16
Genre: Pop
 
  Previous Song |

My Guitar SongbookThe Tab and Notation files are my own work and represent my interpretation of the songs. These files are put together and formatted in Notepad, transformed to MS Word and converted to pdf format to save or print the composition.

The Song audio files are gathered from my personal music library. I do not own the copyright of the songs and audio files, all rights belong to the copyright holders – no copyright infringement is intended.

For superb lessons, original videos and tabs etc. check out the many websites and Resources mentioned throughout this site.

Note: The information contained on this page may be changed or updated at any time without notice.