Good Morning: Guitar Player
Stand By Me (Fingerstyle)   Previous Lick |

Audio, Chords & Tab pdf View pdf to Save / Print composition
Stand By Me (Fingerstyle) - Oisín Reynolds
* Audio file extracted from contributor’s website

Stand By Me (Fingerstyle) - Oisín Reynolds  (4/4)

Arranged By: Oisín Reynolds


Intro:
-----

e|---------|---------|---------|---------|
B|---------|---------|---------|---------|
G|---------|---------|---------|---------|
D|---------|---------|---------|---------|
A|-----3-3-|---2-3-3-|-3-2-0-0-|----0-0--|
E|---------|-3-------|---------|--3------|

e|---------|---------|---------|---------|
B|---------|---------|---------|---------|
G|---------|---------|---------|---------|
D|---------|---------|---------|---------|
A|-0-------|---0-----|---2-3-3-|---2-3-3-|
E|---3-1-1-|-1---3-3-|-3-------|-3-------|

Verse/Chorus:
------------

e|-0-3s5-----|-0-3------|-------|-----0-----------|
B|-----------|----------|-------|-1h3---3---1-----|
G|-----------|----------|-------|-----------------|
D|-----------|----------|-------|-----------------|
A|-------3-3-|---2--3-3-|-3-2-0-|-0-----------0-0-|
E|-----------|-3--------|-------|---------3-------|

e|-----0---------|---0------|----------|----------|
B|-1-3-----1-----|-1---3----|-1-3-1----|----------|
G|---------------|----------|----------|----------|
D|---------------|----------|----------|----------|
A|-0-------------|---0------|---2-3--3-|---2-3--3-|
E|---3---1---1-1-|-1---3--3-|-3--------|-3--------|

Intro to chorus:                    Chorus end:
---------------                     ----------

e|-----5-3-8-7-|--5--|             e|-------0-----|
B|-------------|-----|             B|---------3-1-|
G|-------------|-----|to 2nd Bar   G|-------------| X2
D|-------------|-----|             D|-------------|
A|---2-3-------|--3--|             A|---2-3---3---|
E|-3-------8---|-----|             E|-3-----------|


Verse:
-----

         C         C            Am          Am
When the night has come and the land is dark
        F             G              C      C
And the moon is the only light we'll see
     C         C            Am              Am
No I won't be afraid oh I won't be afraid
        F                G           C      C
Just as long as you stand stand by me        So darling darling 


Chorus
------

C        C      Am            Am
Stand by me oh stand by me
   F     G        C           C
Oh stand stand by me stand by me


Verse:
-----

If the sky that we look upon should tumble and fall
Or the mountain should crumble to the sea
I won't cry I won't cry no I won't shed a tear
Just as long as you stand stand by me      And darling darling 

Chorus:
------

Stand by me oh stand by me
Oh stand now stand by me stand by me

Solo: 1 Verse
----
                                            So darling darling 

Chorus:
------

Stand by me oh stand by me
Oh stand now stand by me stand by me
                          Whenever you're in trouble would you


Chorus:
------

Stand by me oh stand by me
Oh would stand now oh stand stand by me

Repeat the Chorus till end!
        
 
 
Info Show/Hide: Song Information
Stats Song Stats
Rate Show/Hide: Rate this Song
Top  

Song Info  Stand By Me (Fingerstyle) - Oisín Reynolds
Stand By Me (Fingerstyle) - Oisín Reynolds
This version of the song is arranged By: Oisín Reynolds (Lick'N'Riff).

If you're looking for an online guitar teacher that is not either trying to sell you something, or just bore you with the same old scales and exercises without giving you REAL INSIGHT about how to actually be CREATIVE with your guitar, then you've found the right place.

Visit Lick'N'Riff - http://www.licknriff.com/ for Free Lessons and Tab, Ear Training & Arrangement Courses and Private Arrangements & Transcriptions

****************

"Stand by Me" is a song originally performed by American singer-songwriter Ben E. King, written by King, Jerry Leiber and Mike Stoller. There have been over 400 recorded versions of the song performed by many artists.

Ben E. King Original Version: Stand by Me (Key A)

Source: Lick'N'Riff

Rate this Song  Stand By Me (Fingerstyle) - Oisín Reynolds




Song Stats  Stand By Me (Fingerstyle) - Oisín Reynolds
Adder: Bill Charrette [ willc ]
Date: 10/9/2017
Tab By: willc
Rated: (5) Hot! Popular!
Views: 330
pdf Hits: 117
Genre: Licks
 
  Previous Lick |