Good Morning: Guitar Player
Surf Guitar Lick   Previous Lick | Next Lick

Audio, Chords & Tab pdf View pdf to Save / Print composition
Surf Guitar Lick - Jody Worrell
* Audio file extracted from contributor’s website

Surf Guitar Lick - Jody Worrell  (4/4 - Key E)

Key E:
-----

  Em
    _ _ _   _           _        _ _ _   _ _ _          
   | | | | | | |     | | | |    | | | | | | | |   | | | |
e|---------------|------------|-----------------|---------|
B|---------------|------------|-----------------|---------|
G|---------------|------------|-----------------|---------|
D|-------------2-|-4s5-4-2(2)-|-----2-----------|---------|
A|-----------2---|------------|-1s2---2-1p0-----|---------|
E|-0-0-2p0-3-----|------------|-------------3-0-|(0)------|

  Am
    _ _ _   _           _        _ _ _   _ _ _          
   | | | | | | |     | | | |    | | | | | | | |   | | | |
e|---------------|------------|-----------------|---------|
B|---------------|------------|-----------------|---------|
G|-------------2-|-4s5-4-2(2)-|-----2-----------|---------|
D|-----------2---|------------|-1s2---2-1p0-----|---------|
A|-0-0-2p0-3-----|------------|-------------3-0-|(0)------|
E|---------------|------------|-----------------|---------|

  Bm
    _ _ _   _           _        _ _ _   _ _ _          
   | | | | | | |     | | | |    | | | | | | | |   | | | |
e|---------------|------------|-----------------|---------|
B|---------------|------------|-----------------|---------|
G|-------------4-|-6s7-6-4(4)-|-----4-----------|---------|
D|-----------4---|------------|-3s4---4-3p2-0---|---------|
A|-2-2-4p2-5-----|------------|---------------2-|(2)------|
E|---------------|------------|-----------------|---------|
        
 
 
Info Show/Hide: Song Information
Stats Song Stats
Rate Show/Hide: Rate this Song
Top  

Song Info  Surf Guitar Lick - Jody Worrell
Surf Guitar Lick - Jody Worrell
Learn how to play a surf guitar lick with this free video lesson by Jody Worrell. Heading back to the early 1960’s, this original lick is in the mold of a surf guitar instrumental in Em.

Jody will teach you how to play the lick with step by step instruction and then demonstrate it along with a jam track

Source: Guitar Compass

Rate this Song  Surf Guitar Lick - Jody Worrell




Song Stats  Surf Guitar Lick - Jody Worrell
Adder: Bill Charrette [ willc ]
Date: 9/15/2017
Tab By: willc
Rated: (3) Hot! Popular!
Views: 131
pdf Hits: 69
Genre: Licks
 
  Previous Lick | Next Lick