My Guitar Songbook
Good Morning: Guitar Player
Slow Blues Solo Podcast 121   Previous Lick | Next Lick

Audio, Chords & Tab pdf View pdf to Save / Print composition
Slow Blues Solo Podcast 121 - John W Tuggle
* Audio file extracted from contributor’s website

Slow Blues Solo Podcast 121 - John W Tuggle  (12/8 - Key A)

Chords: (8 Bar Blues):

A A, A A7, D D, D#Dim7 D#Dim7, A F#m, Bm7 E7, A D, A E7

Picking Pattern:

   | | | | | |
e|-------@-----|
B|-----@---@---|
G|---@-------@-|
D|-@-----------|
A|-@-----------|
E|-@-----------|
   Bass

Solo:
               A
     __ __    __          __ __ __ __ 
    |  |  |  |  |   |    |  |  |  |  |  |
e|--------------------|-------------------|
B|----10-10-12b-r-b12-|----10----12----10-|
G|s11-----------------|s11----11----11----|
D|--------------------|-------------------|
A|--------------------|-------------------|
E|--------------------|-------------------|

          D
     __ __     _ ___ _       __    __  
    |  |  |   | |   |  |    |  |  |  |   |
e|-----------------------|-----------------|
B|----10-10-p12-r-p10-10-|----10-12b-r-b12-|
G|s11--------------------|-11--------------|
D|-----------------------|-----------------|
A|-----------------------|-----------------|
E|-----------------------|-----------------|

     D#Dim7                      D#Dim7
  E A D G B e                 E A D G B e
 \           /               \           /
  -----------                 -----------
  | | | @ | @ 5fr             | | @ | @ |
  -----------                 -----------
  | @ | | | |      - OR -     | | | @ | @
  -----------                 -----------
  | | @ | @ |
  -----------

  D#Dim7                       A                F#m
     __       __    ___         ___         __
    |  |  |  |  |  |   |  |    |   |   |   |  |  |
e|----------10-12-----------|-12b-12-(12)-10-12-----|
B|----10-13b------12b-12-10-|-------------------12b-|
G|s11-----------------------|-----------------------|
D|--------------------------|-----------------------|
A|--------------------------|-----------------------|
E|--------------------------|-----------------------|

   Bm7       E7                                       A
    __        __ __ ___ __    __ __ __    ___ _ _ _
   |  |  |   |  |  |   |  |  |  |  |  |  |   | | | |  |
e|----------10-12---------------------------------------|
B|---10-12b-------12b-12-10----12----10-12-p12-r-p10-10-|
G|11------------------------11----11--------------------|
D|------------------------------------------------------|
A|------------------------------------------------------|
E|------------------------------------------------------|

   D            A       E7
    _      _         _
   | |  | | |   |   | | | | |
e|---5------------|-----------------|
B|-5---10-5-7-----|---5-------------|
G|------------5h6-|s6---------------|
D|----------------|-----------------|
A|----------------|-----7-----------|
E|----------------|-----------------|
        
 
 
Info Show/Hide: Song Information
Stats Song Stats
Rate Show/Hide: Rate this Song
Top  

Song Info  Slow Blues Solo Podcast 121 - John W Tuggle
Slow Blues Solo Podcast 121 - John W Tuggle
In this free lesson John shows you a mini solo in the style of Duane Allman, BB King, and Peter Green. This lesson is in the key of A.

Source: Learning Guitar Now

Rate this Song  Slow Blues Solo Podcast 121 - John W Tuggle




Song Stats  Slow Blues Solo Podcast 121 - John W Tuggle
Adder: Bill Charrette [ willc ]
Date: 9/11/2017
Tab By: willc
Rated: (3) Hot! Popular!
Views: 211
pdf Hits: 76
Genre: Licks
 
  Previous Lick | Next Lick